  0
SECTION
  2
HEADER
  9
$ACADVER
  1
AC1015
  9
$ACADMAINTVER
 70
     6
  9
$DWGCODEPAGE
  3
ANSI_1254
  9
$INSBASE
 10
0.0
 20
0.0
 30
0.0
  9
$EXTMIN
 10
0.0
 20
0.0
 30
0.0
  9
$EXTMAX
 10
279.4
 20
215.9
 30
0.0
  9
$LIMMIN
 10
0.0
 20
0.0
  9
$LIMMAX
 10
279.4
 20
215.9
  9
$ORTHOMODE
 70
     0
  9
$REGENMODE
 70
     1
  9
$FILLMODE
 70
     1
  9
$QTEXTMODE
 70
     0
  9
$MIRRTEXT
 70
     1
  9
$LTSCALE
 40
1.0
  9
$ATTMODE
 70
     1
  9
$TEXTSIZE
 40
3.5
  9
$TRACEWID
 40
1.0
  9
$TEXTSTYLE
  7
Standard
  9
$CLAYER
  8
0
  9
$CELTYPE
  6
ByLayer
  9
$CECOLOR
 62
   256
  9
$CELTSCALE
 40
1.0
  9
$DISPSILH
 70
     0
  9
$DIMSCALE
 40
1.0
  9
$DIMASZ
 40
3.5
  9
$DIMEXO
 40
1.0
  9
$DIMDLI
 40
3.75
  9
$DIMRND
 40
0.0
  9
$DIMDLE
 40
0.0
  9
$DIMEXE
 40
1.0
  9
$DIMTP
 40
0.0
  9
$DIMTM
 40
0.0
  9
$DIMTXT
 40
3.5
  9
$DIMCEN
 40
2.5
  9
$DIMTSZ
 40
0.0
  9
$DIMTOL
 70
     0
  9
$DIMLIM
 70
     0
  9
$DIMTIH
 70
     1
  9
$DIMTOH
 70
     1
  9
$DIMSE1
 70
     0
  9
$DIMSE2
 70
     0
  9
$DIMTAD
 70
     1
  9
$DIMZIN
 70
     0
  9
$DIMBLK
  1

  9
$DIMASO
 70
     1
  9
$DIMSHO
 70
     1
  9
$DIMPOST
  1

  9
$DIMAPOST
  1

  9
$DIMALT
 70
     0
  9
$DIMALTD
 70
     3
  9
$DIMALTF
 40
0.0393700787
  9
$DIMLFAC
 40
1.0
  9
$DIMTOFL
 70
     1
  9
$DIMTVP
 40
0.0
  9
$DIMTIX
 70
     0
  9
$DIMSOXD
 70
     0
  9
$DIMSAH
 70
     0
  9
$DIMBLK1
  1

  9
$DIMBLK2
  1

  9
$DIMSTYLE
  2
ISO-25
  9
$DIMCLRD
 70
     0
  9
$DIMCLRE
 70
     0
  9
$DIMCLRT
 70
     0
  9
$DIMTFAC
 40
1.0
  9
$DIMGAP
 40
1.524
  9
$DIMJUST
 70
     0
  9
$DIMSD1
 70
     0
  9
$DIMSD2
 70
     0
  9
$DIMTOLJ
 70
     0
  9
$DIMTZIN
 70
     0
  9
$DIMALTZ
 70
     0
  9
$DIMALTTZ
 70
     0
  9
$DIMUPT
 70
     0
  9
$DIMDEC
 70
     2
  9
$DIMTDEC
 70
     2
  9
$DIMALTU
 70
     2
  9
$DIMALTTD
 70
     3
  9
$DIMTXSTY
  7
Standard
  9
$DIMAUNIT
 70
     0
  9
$DIMADEC
 70
     2
  9
$DIMALTRND
 40
0.0
  9
$DIMAZIN
 70
     0
  9
$DIMDSEP
 70
    44
  9
$DIMATFIT
 70
     3
  9
$DIMFRAC
 70
     0
  9
$DIMLDRBLK
  1

  9
$DIMLUNIT
 70
     2
  9
$DIMLWD
 70
    -2
  9
$DIMLWE
 70
    -2
  9
$DIMTMOVE
 70
     0
  9
$LUNITS
 70
     2
  9
$LUPREC
 70
     2
  9
$SKETCHINC
 40
1.0
  9
$FILLETRAD
 40
10.0
  9
$AUNITS
 70
     0
  9
$AUPREC
 70
     2
  9
$MENU
  1
.
  9
$ELEVATION
 40
0.0
  9
$PELEVATION
 40
0.0
  9
$THICKNESS
 40
0.0
  9
$LIMCHECK
 70
     0
  9
$CHAMFERA
 40
0.0
  9
$CHAMFERB
 40
0.0
  9
$CHAMFERC
 40
0.0
  9
$CHAMFERD
 40
0.0
  9
$SKPOLY
 70
     0
  9
$TDCREATE
 40
2458985.698691065
  9
$TDUCREATE
 40
2458985.573691065
  9
$TDUPDATE
 40
2458985.698691308
  9
$TDUUPDATE
 40
2458985.573691308
  9
$TDINDWG
 40
0.0000000116
  9
$TDUSRTIMER
 40
0.0000000116
  9
$USRTIMER
 70
     1
  9
$ANGBASE
 50
0.0
  9
$ANGDIR
 70
     0
  9
$PDMODE
 70
     0
  9
$PDSIZE
 40
-1.0
  9
$PLINEWID
 40
0.0
  9
$SPLFRAME
 70
     0
  9
$SPLINETYPE
 70
     6
  9
$SPLINESEGS
 70
     8
  9
$HANDSEED
  5
EB
  9
$SURFTAB1
 70
     6
  9
$SURFTAB2
 70
     6
  9
$SURFTYPE
 70
     6
  9
$SURFU
 70
     6
  9
$SURFV
 70
     6
  9
$UCSBASE
  2

  9
$UCSNAME
  2

  9
$UCSORG
 10
0.0
 20
0.0
 30
0.0
  9
$UCSXDIR
 10
1.0
 20
0.0
 30
0.0
  9
$UCSYDIR
 10
0.0
 20
1.0
 30
0.0
  9
$UCSORTHOREF
  2

  9
$UCSORTHOVIEW
 70
     0
  9
$UCSORGTOP
 10
0.0
 20
0.0
 30
0.0
  9
$UCSORGBOTTOM
 10
0.0
 20
0.0
 30
0.0
  9
$UCSORGLEFT
 10
0.0
 20
0.0
 30
0.0
  9
$UCSORGRIGHT
 10
0.0
 20
0.0
 30
0.0
  9
$UCSORGFRONT
 10
0.0
 20
0.0
 30
0.0
  9
$UCSORGBACK
 10
0.0
 20
0.0
 30
0.0
  9
$PUCSBASE
  2

  9
$PUCSNAME
  2

  9
$PUCSORG
 10
0.0
 20
0.0
 30
0.0
  9
$PUCSXDIR
 10
1.0
 20
0.0
 30
0.0
  9
$PUCSYDIR
 10
0.0
 20
1.0
 30
0.0
  9
$PUCSORTHOREF
  2

  9
$PUCSORTHOVIEW
 70
     0
  9
$PUCSORGTOP
 10
0.0
 20
0.0
 30
0.0
  9
$PUCSORGBOTTOM
 10
0.0
 20
0.0
 30
0.0
  9
$PUCSORGLEFT
 10
0.0
 20
0.0
 30
0.0
  9
$PUCSORGRIGHT
 10
0.0
 20
0.0
 30
0.0
  9
$PUCSORGFRONT
 10
0.0
 20
0.0
 30
0.0
  9
$PUCSORGBACK
 10
0.0
 20
0.0
 30
0.0
  9
$USERI1
 70
     0
  9
$USERI2
 70
     0
  9
$USERI3
 70
     0
  9
$USERI4
 70
     0
  9
$USERI5
 70
     0
  9
$USERR1
 40
0.0
  9
$USERR2
 40
0.0
  9
$USERR3
 40
0.0
  9
$USERR4
 40
0.0
  9
$USERR5
 40
0.0
  9
$WORLDVIEW
 70
     1
  9
$SHADEDGE
 70
     3
  9
$SHADEDIF
 70
    70
  9
$TILEMODE
 70
     1
  9
$MAXACTVP
 70
    64
  9
$PINSBASE
 10
0.0
 20
0.0
 30
0.0
  9
$PLIMCHECK
 70
     0
  9
$PEXTMIN
 10
1.0000000000E+20
 20
1.0000000000E+20
 30
1.0000000000E+20
  9
$PEXTMAX
 10
-1.0000000000E+20
 20
-1.0000000000E+20
 30
-1.0000000000E+20
  9
$PLIMMIN
 10
0.0
 20
0.0
  9
$PLIMMAX
 10
420.0
 20
297.0
  9
$UNITMODE
 70
     0
  9
$VISRETAIN
 70
     1
  9
$PLINEGEN
 70
     0
  9
$PSLTSCALE
 70
     1
  9
$TREEDEPTH
 70
  3020
  9
$CMLSTYLE
  2
Standard
  9
$CMLJUST
 70
     0
  9
$CMLSCALE
 40
20.0
  9
$PROXYGRAPHICS
 70
     1
  9
$MEASUREMENT
 70
     1
  9
$CELWEIGHT
370
    -1
  9
$ENDCAPS
280
     0
  9
$JOINSTYLE
280
     0
  9
$LWDISPLAY
290
     1
  9
$INSUNITS
 70
     4
  9
$HYPERLINKBASE
  1

  9
$STYLESHEET
  1

  9
$XEDIT
290
     1
  9
$CEPSNTYPE
380
     0
  9
$PSTYLEMODE
290
     1
  9
$FINGERPRINTGUID
  2
{b45f7d24-7957-4064-9f0a-603907c917c8}
  9
$VERSIONGUID
  2
{FAEB1C32-E019-11D5-929B-00C0DF256EC4}
  9
$EXTNAMES
290
     1
  9
$PSVPSCALE
 40
0.0
  9
$OLESTARTUP
290
     0
  0
ENDSEC
  0
SECTION
  2
CLASSES
  0
CLASS
  1
ACDBDICTIONARYWDFLT
  2
AcDbDictionaryWithDefault
  3
ObjectDBX Classes
 90
        0
280
     0
281
     0
  0
CLASS
  1
VISUALSTYLE
  2
AcDbVisualStyle
  3
ObjectDBX Classes
 90
     4095
280
     0
281
     0
  0
CLASS
  1
MATERIAL
  2
AcDbMaterial
  3
ObjectDBX Classes
 90
     1153
280
     0
281
     0
  0
CLASS
  1
SCALE
  2
AcDbScale
  3
ObjectDBX Classes
 90
     1153
280
     0
281
     0
  0
CLASS
  1
TABLESTYLE
  2
AcDbTableStyle
  3
ObjectDBX Classes
 90
     4095
280
     0
281
     0
  0
CLASS
  1
MLEADERSTYLE
  2
AcDbMLeaderStyle
  3
ACDB_MLEADERSTYLE_CLASS
 90
     4095
280
     0
281
     0
  0
CLASS
  1
SUN
  2
AcDbSun
  3
SCENEOE
 90
     1153
280
     0
281
     0
  0
CLASS
  1
ACDBPLACEHOLDER
  2
AcDbPlaceHolder
  3
ObjectDBX Classes
 90
        0
280
     0
281
     0
  0
CLASS
  1
LAYOUT
  2
AcDbLayout
  3
ObjectDBX Classes
 90
        0
280
     0
281
     0
  0
ENDSEC
  0
SECTION
  2
TABLES
  0
TABLE
  2
VPORT
  5
8
330
0
100
AcDbSymbolTable
 70
     1
  0
VPORT
  5
29
330
8
100
AcDbSymbolTableRecord
100
AcDbViewportTableRecord
  2
*Active
 70
     0
 10
0.0
 20
0.0
 11
1.0
 21
1.0
 12
139.7
 22
107.95
 13
0.0
 23
0.0
 14
10.0
 24
10.0
 15
10.0
 25
10.0
 16
0.0
 26
0.0
 36
1.0
 17
0.0
 27
0.0
 37
0.0
 40
215.9
 41
1.2941176471
 42
50.0
 43
0.0
 44
0.0
 50
0.0
 51
0.0
 71
     0
 72
  2000
 73
     1
 74
     3
 75
     0
 76
     0
 77
     0
 78
     0
281
     0
 65
     1
110
0.0
120
0.0
130
0.0
111
1.0
121
0.0
131
0.0
112
0.0
122
1.0
132
0.0
 79
     0
146
0.0
  0
ENDTAB
  0
TABLE
  2
LTYPE
  5
5
330
0
100
AcDbSymbolTable
 70
     6
  0
LTYPE
  5
14
330
5
100
AcDbSymbolTableRecord
100
AcDbLinetypeTableRecord
  2
ByBlock
 70
     0
  3

 72
    65
 73
     0
 40
0.0
  0
LTYPE
  5
15
330
5
100
AcDbSymbolTableRecord
100
AcDbLinetypeTableRecord
  2
ByLayer
 70
     0
  3

 72
    65
 73
     0
 40
0.0
  0
LTYPE
  5
16
330
5
100
AcDbSymbolTableRecord
100
AcDbLinetypeTableRecord
  2
Continuous
 70
     0
  3
Solid line
 72
    65
 73
     0
 40
0.0
  0
LTYPE
  5
6E
330
5
100
AcDbSymbolTableRecord
100
AcDbLinetypeTableRecord
  2
HIDDEN
 70
     0
  3
Hidden __ __ __ __ __ __ __ __ __ __ __ __ __ __
 72
    65
 73
     2
 40
1.905
 49
1.27
 74
     0
 49
-0.635
 74
     0
  0
LTYPE
  5
6F
330
5
100
AcDbSymbolTableRecord
100
AcDbLinetypeTableRecord
  2
PHANTOM
 70
     0
  3
Phantom ______  __  __  ______  __  __  ______
 72
    65
 73
     6
 40
12.7
 49
6.35
 74
     0
 49
-1.27
 74
     0
 49
1.27
 74
     0
 49
-1.27
 74
     0
 49
1.27
 74
     0
 49
-1.27
 74
     0
  0
LTYPE
  5
70
330
5
100
AcDbSymbolTableRecord
100
AcDbLinetypeTableRecord
  2
CENTER
 70
     0
  3
Center ____ _ ____ _ ____ _ ____ _ ____ _ ____
 72
    65
 73
     4
 40
10.16
 49
6.35
 74
     0
 49
-1.27
 74
     0
 49
1.27
 74
     0
 49
-1.27
 74
     0
  0
LTYPE
  5
71
330
5
100
AcDbSymbolTableRecord
100
AcDbLinetypeTableRecord
  2
CENTERX2
 70
     0
  3
Center (2x) ________  __  ________  __  _____
 72
    65
 73
     4
 40
20.32
 49
12.7
 74
     0
 49
-2.54
 74
     0
 49
2.54
 74
     0
 49
-2.54
 74
     0
  0
LTYPE
  5
72
330
5
100
AcDbSymbolTableRecord
100
AcDbLinetypeTableRecord
  2
DOT2
 70
     0
  3
Dot (.5x) ........................................
 72
    65
 73
     2
 40
0.635
 49
0.0
 74
     0
 49
-0.635
 74
     0
  0
ENDTAB
  0
TABLE
  2
LAYER
  5
2
330
0
100
AcDbSymbolTable
 70
    17
  0
LAYER
  5
10
330
2
100
AcDbSymbolTableRecord
100
AcDbLayerTableRecord
  2
0
 70
     0
 62
     7
  6
Continuous
370
    -3
390
F
  0
LAYER
  5
73
330
2
100
AcDbSymbolTableRecord
100
AcDbLayerTableRecord
  2
FORMAT
 70
     0
 62
     7
  6
Continuous
370
    -3
390
F
  0
LAYER
  5
74
330
2
100
AcDbSymbolTableRecord
100
AcDbLayerTableRecord
  2
YARDIMCI_GEOMETRI
 70
     0
 62
    -6
  6
Continuous
290
     0
370
    -3
390
F
  0
LAYER
  5
75
330
2
100
AcDbSymbolTableRecord
100
AcDbLayerTableRecord
  2
SAYFA_CERCEVESI
 70
     0
 62
     7
  6
Continuous
370
    25
390
F
  0
LAYER
  5
76
330
2
100
AcDbSymbolTableRecord
100
AcDbLayerTableRecord
  2
ANTET
 70
     0
 62
     7
  6
Continuous
370
    -3
390
F
  0
LAYER
  5
77
330
2
100
AcDbSymbolTableRecord
100
AcDbLayerTableRecord
  2
OLCU
 70
     0
 62
   150
  6
Continuous
370
    -3
390
F
  0
LAYER
  5
78
330
2
100
AcDbSymbolTableRecord
100
AcDbLayerTableRecord
  2
METIN
 70
     0
 62
    96
  6
Continuous
370
    -3
390
F
  0
LAYER
  5
79
330
2
100
AcDbSymbolTableRecord
100
AcDbLayerTableRecord
  2
BALON
 70
     0
 62
     5
  6
Continuous
370
    -3
390
F
  0
LAYER
  5
7A
330
2
100
AcDbSymbolTableRecord
100
AcDbLayerTableRecord
  2
VURGU
 70
     0
 62
     7
  6
Continuous
370
    -3
390
F
  0
LAYER
  5
7B
330
2
100
AcDbSymbolTableRecord
100
AcDbLayerTableRecord
  2
SILIK
 70
     0
 62
     7
  6
Continuous
370
    -3
390
F
  0
LAYER
  5
7C
330
2
100
AcDbSymbolTableRecord
100
AcDbLayerTableRecord
  2
MODEL
 70
     0
 62
     7
  6
Continuous
370
    -3
390
F
  0
LAYER
  5
7D
330
2
100
AcDbSymbolTableRecord
100
AcDbLayerTableRecord
  2
DETAYLANDıRMA
 70
     0
 62
   190
  6
Continuous
370
    -3
390
F
  0
LAYER
  5
7E
330
2
100
AcDbSymbolTableRecord
100
AcDbLayerTableRecord
  2
TOLERANS
 70
     0
 62
   230
  6
Continuous
370
    -3
390
F
  0
LAYER
  5
7F
330
2
100
AcDbSymbolTableRecord
100
AcDbLayerTableRecord
  2
MERKEZ_CIZGILERI
 70
     0
 62
    30
  6
Continuous
370
    -3
390
F
  0
LAYER
  5
80
330
2
100
AcDbSymbolTableRecord
100
AcDbLayerTableRecord
  2
KESIT-DETAY_CIZGILERI
 70
     0
 62
     7
  6
Continuous
370
    -3
390
F
  0
LAYER
  5
81
330
2
100
AcDbSymbolTableRecord
100
AcDbLayerTableRecord
  2
\U+041E\U+0421\U+0415\U+0412\U+042B\U+0415
 70
     0
 62
     7
  6
Continuous
370
    -3
390
F
  0
LAYER
  5
82
330
2
100
AcDbSymbolTableRecord
100
AcDbLayerTableRecord
  2
\U+0412\U+041E\U+0414\U+042F\U+041D\U+042B\U+0415_\U+0417\U+041D\U+0410\U+041A\U+0418
 70
     0
 62
    11
  6
Continuous
370
    -3
390
F
  0
ENDTAB
  0
TABLE
  2
STYLE
  5
3
330
0
100
AcDbSymbolTable
 70
     1
  0
STYLE
  5
11
330
3
100
AcDbSymbolTableRecord
100
AcDbTextStyleTableRecord
  2
Standard
 70
     0
 40
0.0
 41
1.0
 50
0.0
 71
     0
 42
3.5
  3
txt
  4

  0
ENDTAB
  0
TABLE
  2
VIEW
  5
6
330
0
100
AcDbSymbolTable
 70
     0
  0
ENDTAB
  0
TABLE
  2
UCS
  5
7
330
0
100
AcDbSymbolTable
 70
     0
  0
ENDTAB
  0
TABLE
  2
APPID
  5
9
330
0
100
AcDbSymbolTable
 70
     1
  0
APPID
  5
12
330
9
100
AcDbSymbolTableRecord
100
AcDbRegAppTableRecord
  2
ACAD
 70
     0
  0
ENDTAB
  0
TABLE
  2
DIMSTYLE
  5
A
330
0
100
AcDbSymbolTable
 70
     1
100
AcDbDimStyleTable
  0
DIMSTYLE
105
27
330
A
100
AcDbSymbolTableRecord
100
AcDbDimStyleTableRecord
  2
ISO-25
 70
     0
 41
2.5
 42
0.625
 43
3.75
 44
1.25
 73
     0
 74
     0
 77
     1
 78
     8
140
2.5
141
2.5
143
0.0393700787
147
0.625
171
     3
172
     1
178
     0
271
     2
272
     2
274
     3
278
    44
283
     0
284
     8
340
11
  0
ENDTAB
  0
TABLE
  2
BLOCK_RECORD
  5
1
330
0
100
AcDbSymbolTable
 70
     2
  0
BLOCK_RECORD
  5
1F
330
1
100
AcDbSymbolTableRecord
100
AcDbBlockTableRecord
  2
*Model_Space
340
22
  0
BLOCK_RECORD
  5
1B
330
1
100
AcDbSymbolTableRecord
100
AcDbBlockTableRecord
  2
*Paper_Space
340
1E
  0
BLOCK_RECORD
  5
23
330
1
100
AcDbSymbolTableRecord
100
AcDbBlockTableRecord
  2
*Paper_Space0
340
26
  0
BLOCK_RECORD
  5
88
330
1
100
AcDbSymbolTableRecord
100
AcDbBlockTableRecord
  2
SW_CENTERMARKSYMBOL_0
340
0
102
{BLKREFS
331
93
102
}
  0
ENDTAB
  0
ENDSEC
  0
SECTION
  2
BLOCKS
  0
BLOCK
  5
20
330
1F
100
AcDbEntity
  8
0
100
AcDbBlockBegin
  2
*Model_Space
 70
     0
 10
0.0
 20
0.0
 30
0.0
  3
*Model_Space
  1

  0
ENDBLK
  5
21
330
1F
100
AcDbEntity
  8
0
100
AcDbBlockEnd
  0
BLOCK
  5
1C
330
1B
100
AcDbEntity
 67
     1
  8
0
100
AcDbBlockBegin
  2
*Paper_Space
 70
     0
 10
0.0
 20
0.0
 30
0.0
  3
*Paper_Space
  1

  0
ENDBLK
  5
1D
330
1B
100
AcDbEntity
 67
     1
  8
0
100
AcDbBlockEnd
  0
BLOCK
  5
24
330
23
100
AcDbEntity
  8
0
100
AcDbBlockBegin
  2
*Paper_Space0
 70
     0
 10
0.0
 20
0.0
 30
0.0
  3
*Paper_Space0
  1

  0
ENDBLK
  5
25
330
23
100
AcDbEntity
  8
0
100
AcDbBlockEnd
  0
BLOCK
  5
89
330
88
100
AcDbEntity
  8
0
100
AcDbBlockBegin
  2
SW_CENTERMARKSYMBOL_0
 70
     0
 10
0.0
 20
0.0
 30
0.0
  3
SW_CENTERMARKSYMBOL_0
  1

  0
LINE
  5
8B
330
88
100
AcDbEntity
  8
FORMAT
 62
     0
100
AcDbLine
 10
0.0
 20
0.0
 30
0.0
 11
0.0
 21
2.5
 31
0.0
  0
LINE
  5
8C
330
88
100
AcDbEntity
  8
FORMAT
 62
     0
100
AcDbLine
 10
0.0
 20
0.0
 30
0.0
 11
-2.5
 21
0.0
 31
0.0
  0
LINE
  5
8D
330
88
100
AcDbEntity
  8
FORMAT
 62
     0
100
AcDbLine
 10
0.0
 20
0.0
 30
0.0
 11
0.0
 21
-2.5
 31
0.0
  0
LINE
  5
8E
330
88
100
AcDbEntity
  8
FORMAT
 62
     0
100
AcDbLine
 10
0.0
 20
0.0
 30
0.0
 11
2.5
 21
0.0
 31
0.0
  0
LINE
  5
8F
330
88
100
AcDbEntity
  8
FORMAT
 62
     0
100
AcDbLine
 10
0.0
 20
5.0
 30
0.0
 11
0.0
 21
34.0
 31
0.0
  0
LINE
  5
90
330
88
100
AcDbEntity
  8
FORMAT
 62
     0
100
AcDbLine
 10
-5.0
 20
0.0
 30
0.0
 11
-34.0
 21
0.0
 31
0.0
  0
LINE
  5
91
330
88
100
AcDbEntity
  8
FORMAT
 62
     0
100
AcDbLine
 10
0.0
 20
-5.0
 30
0.0
 11
0.0
 21
-34.0
 31
0.0
  0
LINE
  5
92
330
88
100
AcDbEntity
  8
FORMAT
 62
     0
100
AcDbLine
 10
5.0
 20
0.0
 30
0.0
 11
34.0
 21
0.0
 31
0.0
  0
ENDBLK
  5
8A
330
88
100
AcDbEntity
  8
0
100
AcDbBlockEnd
  0
ENDSEC
  0
SECTION
  2
ENTITIES
  0
CIRCLE
  5
83
330
1F
100
AcDbEntity
  8
0
  6
Continuous
 62
     7
370
    25
100
AcDbCircle
 10
139.395004093
 20
107.5851680021
 30
0.0
 40
31.5
  0
CIRCLE
  5
84
330
1F
100
AcDbEntity
  8
0
  6
Continuous
 62
     7
370
    25
100
AcDbCircle
 10
139.395004093
 20
107.5851680021
 30
0.0
 40
25.7
  0
CIRCLE
  5
85
330
1F
100
AcDbEntity
  8
0
  6
Continuous
 62
     7
370
    25
100
AcDbCircle
 10
139.395004093
 20
107.5851680021
 30
0.0
 40
25.19494934418636
  0
CIRCLE
  5
86
330
1F
100
AcDbEntity
  8
0
  6
Continuous
 62
     7
370
    25
100
AcDbCircle
 10
139.395004093
 20
107.5851680021
 30
0.0
 40
10.00505065581365
  0
CIRCLE
  5
87
330
1F
100
AcDbEntity
  8
0
  6
Continuous
 62
     7
370
    25
100
AcDbCircle
 10
139.395004093
 20
107.5851680021
 30
0.0
 40
9.5
  0
INSERT
  5
93
330
1F
100
AcDbEntity
  8
FORMAT
 62
     7
100
AcDbBlockReference
  2
SW_CENTERMARKSYMBOL_0
 10
139.395004093
 20
107.5851680021
 30
0.0
  0
ARC
  5
94
330
1F
100
AcDbEntity
  8
0
  6
Continuous
 62
     7
370
    25
100
AcDbCircle
 10
-37.8358565825
 20
137.0851680021
 30
0.0
 40
2.000000000000016
100
AcDbArc
 50
64.0256060376
 51
90.0
  0
ARC
  5
95
330
1F
100
AcDbEntity
  8
0
  6
Continuous
 62
     7
370
    25
100
AcDbCircle
 10
-37.8358565825
 20
78.0851680021
 30
0.0
 40
2.000000000000003
100
AcDbArc
 50
270.0
 51
295.9743939624
  0
LINE
  5
96
330
1F
100
AcDbEntity
  8
0
  6
Continuous
 62
     7
370
    25
100
AcDbLine
 10
-37.8358557526
 20
139.0851685088
 30
0.0
 11
-100.3745894585
 21
139.0851685088
 31
0.0
  0
LINE
  5
97
330
1F
100
AcDbEntity
  8
0
  6
Continuous
 62
     7
370
    25
100
AcDbLine
 10
-100.3745894585
 20
76.0851674955
 30
0.0
 11
-37.8358557526
 21
76.0851674955
 31
0.0
  0
LINE
  5
98
330
1F
100
AcDbEntity
  8
0
  6
Continuous
 62
     7
370
    25
100
AcDbLine
 10
-36.9599170689
 20
76.2871899884
 30
0.0
 11
1.2107353952
 21
94.8831481169
 31
0.0
  0
LINE
  5
99
330
1F
100
AcDbEntity
  8
0
  6
Continuous
 62
     7
370
    25
100
AcDbLine
 10
1.2107353952
 20
120.2871878873
 30
0.0
 11
-36.9599170689
 21
138.8831460159
 31
0.0
  0
ARC
  5
9A
330
1F
100
AcDbEntity
  8
0
  6
Continuous
 62
     7
370
    25
100
AcDbCircle
 10
2.0866747706
 20
122.0851680021
 30
0.0
 40
2.0
100
AcDbArc
 50
244.0256060376
 51
270.0
  0
ARC
  5
9B
330
1F
100
AcDbEntity
  8
0
  6
Continuous
 62
     7
370
    25
100
AcDbCircle
 10
2.0866747706
 20
93.0851680021
 30
0.0
 40
1.999999999999996
100
AcDbArc
 50
90.0
 51
115.9743939624
  0
LINE
  5
9C
330
1F
100
AcDbEntity
  8
0
  6
Continuous
 62
     7
370
    25
100
AcDbLine
 10
42.6254097667
 20
120.0851681884
 30
0.0
 11
2.0866740789
 21
120.0851681884
 31
0.0
  0
LINE
  5
9D
330
1F
100
AcDbEntity
  8
0
  6
Continuous
 62
     7
370
    25
100
AcDbLine
 10
2.0866740789
 20
95.0851678159
 30
0.0
 11
42.6254097667
 21
95.0851678159
 31
0.0
  0
LINE
  5
9E
330
1F
100
AcDbEntity
  8
0
  6
Continuous
 62
     7
370
    25
100
AcDbLine
 10
-100.3745894585
 20
139.0851685088
 30
0.0
 11
-100.3745894585
 21
76.0851674955
 31
0.0
  0
LINE
  5
9F
330
1F
100
AcDbEntity
  8
0
  6
Continuous
 62
     7
370
    25
100
AcDbLine
 10
42.6254097667
 20
120.0851681884
 30
0.0
 11
42.6254097667
 21
95.0851678159
 31
0.0
  0
LINE
  5
A0
330
1F
100
AcDbEntity
  8
0
  6
Continuous
 62
     1
370
    25
100
AcDbLine
 10
-36.9599170689
 20
138.8831460159
 30
0.0
 11
-36.9599170689
 21
76.2871899884
 31
0.0
  0
LINE
  5
A1
330
1F
100
AcDbEntity
  8
0
  6
Continuous
 62
     1
370
    25
100
AcDbLine
 10
-37.8358557526
 20
139.0851685088
 30
0.0
 11
-37.8358557526
 21
76.0851674955
 31
0.0
  0
LINE
  5
A2
330
1F
100
AcDbEntity
  8
0
  6
Continuous
 62
     1
370
    25
100
AcDbLine
 10
1.2107353952
 20
120.2871878873
 30
0.0
 11
1.2107353952
 21
94.8831481169
 31
0.0
  0
LINE
  5
A3
330
1F
100
AcDbEntity
  8
0
  6
Continuous
 62
     1
370
    25
100
AcDbLine
 10
2.0866740789
 20
120.0851681884
 30
0.0
 11
2.0866740789
 21
95.0851678159
 31
0.0
  0
ARC
  5
A4
330
1F
100
AcDbEntity
  8
0
  6
Continuous
 62
     7
370
    25
100
AcDbCircle
 10
301.9908105104
 20
78.0851680021
 30
0.0
 40
2.0
100
AcDbArc
 50
244.0256060376
 51
270.0
  0
ARC
  5
A5
330
1F
100
AcDbEntity
  8
0
  6
Continuous
 62
     7
370
    25
100
AcDbCircle
 10
301.9908105104
 20
137.0851680021
 30
0.0
 40
2.000000000000013
100
AcDbArc
 50
90.0
 51
115.9743939624
  0
LINE
  5
A6
330
1F
100
AcDbEntity
  8
0
  6
Continuous
 62
     7
370
    25
100
AcDbLine
 10
301.9908096806
 20
76.0851674955
 30
0.0
 11
364.5295433864
 21
76.0851674955
 31
0.0
  0
LINE
  5
A7
330
1F
100
AcDbEntity
  8
0
  6
Continuous
 62
     7
370
    25
100
AcDbLine
 10
364.5295433864
 20
139.0851685088
 30
0.0
 11
301.9908096806
 21
139.0851685088
 31
0.0
  0
LINE
  5
A8
330
1F
100
AcDbEntity
  8
0
  6
Continuous
 62
     7
370
    25
100
AcDbLine
 10
301.1148709968
 20
138.8831460159
 30
0.0
 11
262.9442185328
 21
120.2871878873
 31
0.0
  0
LINE
  5
A9
330
1F
100
AcDbEntity
  8
0
  6
Continuous
 62
     7
370
    25
100
AcDbLine
 10
262.9442185328
 20
94.8831481169
 30
0.0
 11
301.1148709968
 21
76.2871899884
 31
0.0
  0
ARC
  5
AA
330
1F
100
AcDbEntity
  8
0
  6
Continuous
 62
     7
370
    25
100
AcDbCircle
 10
262.0682791574
 20
93.0851680021
 30
0.0
 40
1.999999999999986
100
AcDbArc
 50
64.0256060376
 51
90.0
  0
ARC
  5
AB
330
1F
100
AcDbEntity
  8
0
  6
Continuous
 62
     7
370
    25
100
AcDbCircle
 10
262.0682791574
 20
122.0851680021
 30
0.0
 40
2.0
100
AcDbArc
 50
270.0
 51
295.9743939624
  0
LINE
  5
AC
330
1F
100
AcDbEntity
  8
0
  6
Continuous
 62
     7
370
    25
100
AcDbLine
 10
221.5295441613
 20
95.0851678159
 30
0.0
 11
262.068279849
 21
95.0851678159
 31
0.0
  0
LINE
  5
AD
330
1F
100
AcDbEntity
  8
0
  6
Continuous
 62
     7
370
    25
100
AcDbLine
 10
262.068279849
 20
120.0851681884
 30
0.0
 11
221.5295441613
 21
120.0851681884
 31
0.0
  0
LINE
  5
AE
330
1F
100
AcDbEntity
  8
0
  6
Continuous
 62
     7
370
    25
100
AcDbLine
 10
364.5295433864
 20
107.5851680021
 30
0.0
 11
364.5295433864
 21
139.0851685088
 31
0.0
  0
LINE
  5
AF
330
1F
100
AcDbEntity
  8
0
  6
Continuous
 62
     7
370
    25
100
AcDbLine
 10
364.5295433864
 20
76.0851674955
 30
0.0
 11
364.5295433864
 21
107.5851680021
 31
0.0
  0
LINE
  5
B0
330
1F
100
AcDbEntity
  8
0
  6
Continuous
 62
     7
370
    25
100
AcDbLine
 10
221.5295441613
 20
107.5851680021
 30
0.0
 11
221.5295441613
 21
120.0851681884
 31
0.0
  0
LINE
  5
B1
330
1F
100
AcDbEntity
  8
0
  6
Continuous
 62
     7
370
    25
100
AcDbLine
 10
221.5295441613
 20
95.0851678159
 30
0.0
 11
221.5295441613
 21
107.5851680021
 31
0.0
  0
LINE
  5
B2
330
1F
100
AcDbEntity
  8
0
  6
Continuous
 62
     1
370
    25
100
AcDbLine
 10
301.1148709968
 20
107.5851680021
 30
0.0
 11
301.1148709968
 21
138.8831460159
 31
0.0
  0
LINE
  5
B3
330
1F
100
AcDbEntity
  8
0
  6
Continuous
 62
     1
370
    25
100
AcDbLine
 10
301.1148709968
 20
76.2871899884
 30
0.0
 11
301.1148709968
 21
107.5851680021
 31
0.0
  0
LINE
  5
B4
330
1F
100
AcDbEntity
  8
0
  6
Continuous
 62
     1
370
    25
100
AcDbLine
 10
301.9908096806
 20
107.5851680021
 30
0.0
 11
301.9908096806
 21
139.0851685088
 31
0.0
  0
LINE
  5
B5
330
1F
100
AcDbEntity
  8
0
  6
Continuous
 62
     1
370
    25
100
AcDbLine
 10
301.9908096806
 20
76.0851674955
 30
0.0
 11
301.9908096806
 21
107.5851680021
 31
0.0
  0
LINE
  5
B6
330
1F
100
AcDbEntity
  8
0
  6
Continuous
 62
     1
370
    25
100
AcDbLine
 10
262.9442185328
 20
107.5851680021
 30
0.0
 11
262.9442185328
 21
120.2871878873
 31
0.0
  0
LINE
  5
B7
330
1F
100
AcDbEntity
  8
0
  6
Continuous
 62
     1
370
    25
100
AcDbLine
 10
262.9442185328
 20
94.8831481169
 30
0.0
 11
262.9442185328
 21
107.5851680021
 31
0.0
  0
LINE
  5
B8
330
1F
100
AcDbEntity
  8
0
  6
Continuous
 62
     1
370
    25
100
AcDbLine
 10
262.068279849
 20
107.5851680021
 30
0.0
 11
262.068279849
 21
120.0851681884
 31
0.0
  0
LINE
  5
B9
330
1F
100
AcDbEntity
  8
0
  6
Continuous
 62
     1
370
    25
100
AcDbLine
 10
262.068279849
 20
95.0851678159
 30
0.0
 11
262.068279849
 21
107.5851680021
 31
0.0
  0
ARC
  5
BA
330
1F
100
AcDbEntity
  8
0
  6
Continuous
 62
     7
370
    25
100
AcDbCircle
 10
168.895004093
 20
274.9746777271
 30
0.0
 40
2.0
100
AcDbArc
 50
334.0256060376
 51
0.0
  0
ARC
  5
BB
330
1F
100
AcDbEntity
  8
0
  6
Continuous
 62
     7
370
    25
100
AcDbCircle
 10
109.895004093
 20
274.9746777271
 30
0.0
 40
2.0
100
AcDbArc
 50
180.0
 51
205.9743939624
  0
LINE
  5
BC
330
1F
100
AcDbEntity
  8
0
  6
Continuous
 62
     7
370
    25
100
AcDbLine
 10
170.8950045997
 20
274.9746768972
 30
0.0
 11
170.8950045997
 21
337.5134106031
 31
0.0
  0
LINE
  5
BD
330
1F
100
AcDbEntity
  8
0
  6
Continuous
 62
     7
370
    25
100
AcDbLine
 10
107.8950035864
 20
337.5134106031
 30
0.0
 11
107.8950035864
 21
274.9746768972
 31
0.0
  0
LINE
  5
BE
330
1F
100
AcDbEntity
  8
0
  6
Continuous
 62
     7
370
    25
100
AcDbLine
 10
108.0970260793
 20
274.0987382135
 30
0.0
 11
126.6929842079
 21
235.9280857494
 31
0.0
  0
LINE
  5
BF
330
1F
100
AcDbEntity
  8
0
  6
Continuous
 62
     7
370
    25
100
AcDbLine
 10
152.0970239782
 20
235.9280857494
 30
0.0
 11
170.6929821068
 21
274.0987382135
 31
0.0
  0
ARC
  5
C0
330
1F
100
AcDbEntity
  8
0
  6
Continuous
 62
     7
370
    25
100
AcDbCircle
 10
153.895004093
 20
235.052146374
 30
0.0
 40
2.0
100
AcDbArc
 50
154.0256060376
 51
180.0
  0
ARC
  5
C1
330
1F
100
AcDbEntity
  8
0
  6
Continuous
 62
     7
370
    25
100
AcDbCircle
 10
124.895004093
 20
235.052146374
 30
0.0
 40
2.0
100
AcDbArc
 50
0.0
 51
25.9743939624
  0
LINE
  5
C2
330
1F
100
AcDbEntity
  8
0
  6
Continuous
 62
     7
370
    25
100
AcDbLine
 10
151.8950042793
 20
194.5134113779
 30
0.0
 11
151.8950042793
 21
235.0521470657
 31
0.0
  0
LINE
  5
C3
330
1F
100
AcDbEntity
  8
0
  6
Continuous
 62
     7
370
    25
100
AcDbLine
 10
126.8950039068
 20
235.0521470657
 30
0.0
 11
126.8950039068
 21
194.5134113779
 31
0.0
  0
LINE
  5
C4
330
1F
100
AcDbEntity
  8
0
  6
Continuous
 62
     7
370
    25
100
AcDbLine
 10
170.8950045997
 20
337.5134106031
 30
0.0
 11
107.8950035864
 21
337.5134106031
 31
0.0
  0
LINE
  5
C5
330
1F
100
AcDbEntity
  8
0
  6
Continuous
 62
     7
370
    25
100
AcDbLine
 10
151.8950042793
 20
194.5134113779
 30
0.0
 11
126.8950039068
 21
194.5134113779
 31
0.0
  0
LINE
  5
C6
330
1F
100
AcDbEntity
  8
0
  6
Continuous
 62
     1
370
    25
100
AcDbLine
 10
170.6929821068
 20
274.0987382135
 30
0.0
 11
108.0970260793
 21
274.0987382135
 31
0.0
  0
LINE
  5
C7
330
1F
100
AcDbEntity
  8
0
  6
Continuous
 62
     1
370
    25
100
AcDbLine
 10
170.8950045997
 20
274.9746768972
 30
0.0
 11
107.8950035864
 21
274.9746768972
 31
0.0
  0
LINE
  5
C8
330
1F
100
AcDbEntity
  8
0
  6
Continuous
 62
     1
370
    25
100
AcDbLine
 10
152.0970239782
 20
235.9280857494
 30
0.0
 11
126.6929842079
 21
235.9280857494
 31
0.0
  0
LINE
  5
C9
330
1F
100
AcDbEntity
  8
0
  6
Continuous
 62
     1
370
    25
100
AcDbLine
 10
151.8950042793
 20
235.0521470657
 30
0.0
 11
126.8950039068
 21
235.0521470657
 31
0.0
  0
ARC
  5
CA
330
1F
100
AcDbEntity
  8
0
  6
Continuous
 62
     7
370
    25
100
AcDbCircle
 10
109.895004093
 20
-45.9620546014
 30
0.0
 40
2.0
100
AcDbArc
 50
154.0256060376
 51
180.0
  0
ARC
  5
CB
330
1F
100
AcDbEntity
  8
0
  6
Continuous
 62
     7
370
    25
100
AcDbCircle
 10
168.895004093
 20
-45.9620546014
 30
0.0
 40
2.0
100
AcDbArc
 50
0.0
 51
25.9743939624
  0
LINE
  5
CC
330
1F
100
AcDbEntity
  8
0
  6
Continuous
 62
     7
370
    25
100
AcDbLine
 10
107.8950035864
 20
-45.9620537715
 30
0.0
 11
107.8950035864
 21
-108.5007874774
 31
0.0
  0
LINE
  5
CD
330
1F
100
AcDbEntity
  8
0
  6
Continuous
 62
     7
370
    25
100
AcDbLine
 10
170.8950045997
 20
-108.5007874774
 30
0.0
 11
170.8950045997
 21
-45.9620537715
 31
0.0
  0
LINE
  5
CE
330
1F
100
AcDbEntity
  8
0
  6
Continuous
 62
     7
370
    25
100
AcDbLine
 10
170.6929821068
 20
-45.0861150878
 30
0.0
 11
152.0970239782
 21
-6.9154626238
 31
0.0
  0
LINE
  5
CF
330
1F
100
AcDbEntity
  8
0
  6
Continuous
 62
     7
370
    25
100
AcDbLine
 10
126.6929842079
 20
-6.9154626238
 30
0.0
 11
108.0970260793
 21
-45.0861150878
 31
0.0
  0
ARC
  5
D0
330
1F
100
AcDbEntity
  8
0
  6
Continuous
 62
     7
370
    25
100
AcDbCircle
 10
124.895004093
 20
-6.0395232483
 30
0.0
 40
2.0
100
AcDbArc
 50
334.0256060376
 51
0.0
  0
ARC
  5
D1
330
1F
100
AcDbEntity
  8
0
  6
Continuous
 62
     7
370
    25
100
AcDbCircle
 10
153.895004093
 20
-6.0395232483
 30
0.0
 40
2.0
100
AcDbArc
 50
180.0
 51
205.9743939624
  0
LINE
  5
D2
330
1F
100
AcDbEntity
  8
0
  6
Continuous
 62
     7
370
    25
100
AcDbLine
 10
126.8950039068
 20
34.4992117477
 30
0.0
 11
126.8950039068
 21
-6.03952394
 31
0.0
  0
LINE
  5
D3
330
1F
100
AcDbEntity
  8
0
  6
Continuous
 62
     7
370
    25
100
AcDbLine
 10
151.8950042793
 20
-6.03952394
 30
0.0
 11
151.8950042793
 21
34.4992117477
 31
0.0
  0
LINE
  5
D4
330
1F
100
AcDbEntity
  8
0
  6
Continuous
 62
     7
370
    25
100
AcDbLine
 10
107.8950035864
 20
-108.5007874774
 30
0.0
 11
170.8950045997
 21
-108.5007874774
 31
0.0
  0
LINE
  5
D5
330
1F
100
AcDbEntity
  8
0
  6
Continuous
 62
     7
370
    25
100
AcDbLine
 10
126.8950039068
 20
34.4992117477
 30
0.0
 11
151.8950042793
 21
34.4992117477
 31
0.0
  0
LINE
  5
D6
330
1F
100
AcDbEntity
  8
0
  6
Continuous
 62
     1
370
    25
100
AcDbLine
 10
108.0970260793
 20
-45.0861150878
 30
0.0
 11
170.6929821068
 21
-45.0861150878
 31
0.0
  0
LINE
  5
D7
330
1F
100
AcDbEntity
  8
0
  6
Continuous
 62
     1
370
    25
100
AcDbLine
 10
107.8950035864
 20
-45.9620537715
 30
0.0
 11
170.8950045997
 21
-45.9620537715
 31
0.0
  0
LINE
  5
D8
330
1F
100
AcDbEntity
  8
0
  6
Continuous
 62
     1
370
    25
100
AcDbLine
 10
126.6929842079
 20
-6.9154626238
 30
0.0
 11
152.0970239782
 21
-6.9154626238
 31
0.0
  0
LINE
  5
D9
330
1F
100
AcDbEntity
  8
0
  6
Continuous
 62
     1
370
    25
100
AcDbLine
 10
126.8950039068
 20
-6.03952394
 30
0.0
 11
151.8950042793
 21
-6.03952394
 31
0.0
  0
LINE
  5
DA
330
1F
100
AcDbEntity
  8
0
  6
Continuous
 62
     7
370
    25
100
AcDbLine
 10
297.0432408193
 20
9.5569926731
 30
0.0
 11
252.8216781291
 21
35.0855574234
 31
0.0
  0
LINE
  5
DB
330
1F
100
AcDbEntity
  8
0
  6
Continuous
 62
     7
370
    25
100
AcDbLine
 10
221.3242371505
 20
-19.4755208174
 30
0.0
 11
265.5457998407
 21
-45.0040855677
 31
0.0
  0
SPLINE
  5
DC
330
1F
100
AcDbEntity
  8
0
  6
Continuous
 62
     7
370
    25
100
AcDbSpline
210
0.0
220
0.0
230
1.0
 70
     8
 71
     3
 72
    14
 73
    10
 74
     0
 42
0.000000001
 43
0.00000001
 40
0.0
 40
0.0
 40
0.0
 40
0.0
 40
0.1175195960534949
 40
0.2785148936366758
 40
0.4381245242937768
 40
0.5963415706378629
 40
0.7532876974055147
 40
0.9092094813147609
 40
1.0
 40
1.0
 40
1.0
 40
1.0
 10
301.9799788936394
 20
4.260628895217375
 30
0.0
 10
301.8402638483084
 20
4.525312941322603
 30
0.0
 10
301.5091469767692
 20
5.152599380554117
 30
0.0
 10
300.9010680371898
 20
6.057900948496633
 30
0.0
 10
300.1738211907533
 20
6.98106300413015
 30
0.0
 10
299.3817809967569
 20
7.81675417355307
 30
0.0
 10
298.5291100097859
 20
8.560373445629772
 30
0.0
 10
297.7538815938729
 20
9.136918047414275
 30
0.0
 10
297.2430142652731
 20
9.42833696921773
 30
0.0
 10
297.0550142780202
 20
9.535579594684672
 30
0.0
  0
SPLINE
  5
DD
330
1F
100
AcDbEntity
  8
0
  6
Continuous
 62
     7
370
    25
100
AcDbSpline
210
0.0
220
0.0
230
1.0
 70
     8
 71
     3
 72
    14
 73
    10
 74
     0
 42
0.000000001
 43
0.00000001
 40
0.0
 40
0.0
 40
0.0
 40
0.0
 40
0.1059988577146853
 40
0.2576612415429582
 40
0.4095016327594751
 40
0.5619193335701241
 40
0.7152477261405428
 40
0.8697234347011832
 40
1.0
 40
1.0
 40
1.0
 40
1.0
 10
265.6062041771482
 20
-45.0261191710841
 30
0.0
 10
265.8307682353287
 20
-45.15353384941341
 30
0.0
 10
266.3766368916912
 20
-45.46325250975493
 30
0.0
 10
267.3008243211947
 20
-45.84987367268967
 30
0.0
 10
268.3651224532898
 20
-46.19857336241062
 30
0.0
 10
269.4720364406771
 20
-46.45053441704774
 30
0.0
 10
270.6172755475847
 20
-46.60589424597445
 30
0.0
 10
271.731380949392
 20
-46.67138404737338
 30
0.0
 10
272.4727543397869
 20
-46.63872395601349
 30
0.0
 10
272.8119389144894
 20
-46.62378168894379
 30
0.0
  0
LINE
  5
DE
330
1F
100
AcDbEntity
  8
0
  6
Continuous
 62
     7
370
    25
100
AcDbLine
 10
272.6158941657
 20
-46.6398971595
 30
0.0
 11
305.1311117302
 21
-45.2528663007
 31
0.0
  0
LINE
  5
DF
330
1F
100
AcDbEntity
  8
0
  6
Continuous
 62
     7
370
    25
100
AcDbLine
 10
317.0545513214
 20
-24.5986247658
 30
0.0
 11
301.9954388845
 21
4.2524817242
 31
0.0
  0
LINE
  5
E0
330
1F
100
AcDbEntity
  8
0
  6
Continuous
 62
     7
370
    25
100
AcDbLine
 10
344.4387186933
 20
-39.7425505354
 30
0.0
 11
316.5580383969
 21
-23.6473763957
 31
0.0
  0
LINE
  5
E1
330
1F
100
AcDbEntity
  8
0
  6
Continuous
 62
     7
370
    25
100
AcDbLine
 10
304.0590546133
 20
-45.2985980768
 30
0.0
 11
331.9397349097
 21
-61.3937722166
 31
0.0
  0
LWPOLYLINE
  5
E2
330
1F
100
AcDbEntity
  8
0
  6
Continuous
 62
     7
370
    25
100
AcDbPolyline
 90
      104
 70
   128
 43
0.0
 10
214.7990936741
 20
-5.053409665
 10
214.8405240262
 20
-3.4614359161
 10
214.964659666
 20
-1.8275507416
 10
215.1710409293
 20
-0.1578308624
 10
215.4588986363
 20
1.5415109071
 10
215.8271606764
 20
3.2641525592
 10
216.2744599113
 20
5.0036877024
 10
216.7991302234
 20
6.7536438133
 10
217.3992196866
 20
8.5075099918
 10
218.0724984694
 20
10.2587639568
 10
218.8164588343
 20
12.0008887767
 10
219.6283348942
 20
13.7274063276
 10
220.5051065642
 20
15.431891742
 10
221.4435114146
 20
17.108003826
 10
222.4400591597
 20
18.7495086322
 10
223.4910421938
 20
20.350299231
 10
224.5925500796
 20
21.9044208046
 10
225.7404866704
 20
23.4060911774
 10
226.9305806463
 20
24.8497251503
 10
228.1584046128
 20
26.2299500881
 10
229.4193915636
 20
27.5416351962
 10
230.7088506862
 20
28.779897602
 10
232.0219841545
 20
29.9401318223
 10
233.3539075441
 20
31.0180230686
 10
234.6996662952
 20
32.0095597938
 10
236.0542538233
 20
32.911054793
 10
237.4126309045
 20
33.7191533529
 10
238.7697444859
 20
34.4308471526
 10
240.1205458769
 20
35.0434938909
 10
241.4600099304
 20
35.5548116287
 10
242.7831536045
 20
35.9628971098
 10
244.0850552671
 20
36.2662338628
 10
245.3608719816
 20
36.4636930545
 10
246.6058563009
 20
36.5545401432
 10
247.8153779983
 20
36.5384382979
 10
248.9849372395
 20
36.415445356
 10
250.1101830206
 20
36.1860183835
 10
251.186929633
 20
35.8510140545
 10
252.2111704917
 20
35.4116753413
 10
253.1790978924
 20
34.8696398778
 10
254.0871082796
 20
34.2269217078
 10
254.9318246371
 20
33.4859105227
 10
255.7101057075
 20
32.6493663369
 10
256.4190538951
 20
31.7203989553
 10
257.0560350217
 20
30.7024656892
 10
257.6186770101
 20
29.599351585
 10
258.1048870058
 20
28.4151610574
 10
258.5128579626
 20
27.1542996374
 10
258.84106996
 20
25.8214576226
 10
259.0883046904
 20
24.4215941057
 10
259.2536401917
 20
22.9599151121
 10
259.3364613832
 20
21.441858532
 10
259.3364613832
 20
19.8730723521
 10
259.2536401917
 20
18.2593924598
 10
259.0883046904
 20
16.6068211597
 10
258.84106996
 20
14.921506499
 10
258.5128579626
 20
13.2097189781
 10
258.1048870058
 20
11.4778243175
 10
257.6186770101
 20
9.7322676779
 10
257.0560350217
 20
7.9795409614
 10
256.4190538951
 20
6.2261649408
 10
255.7101057075
 20
4.4786634048
 10
254.9318246371
 20
2.7435350221
 10
254.0871082796
 20
1.0272350902
 10
253.1790978924
 20
-0.6638495577
 10
252.2111704917
 20
-2.3234302105
 10
251.186929633
 20
-3.9453322476
 10
250.1101830206
 20
-5.5235217533
 10
248.9849372395
 20
-7.0521298509
 10
247.8153779983
 20
-8.5254671497
 10
246.6058563009
 20
-9.9380530219
 10
245.3608719816
 20
-11.2846342317
 10
244.0850552671
 20
-12.5602016643
 10
242.7831536045
 20
-13.7600085756
 10
241.4600099304
 20
-14.8795922633
 10
240.1205458769
 20
-15.9147868032
 10
238.7697444859
 20
-16.861742154
 10
237.4126309045
 20
-17.7169383431
 10
236.0542538233
 20
-18.4771885779
 10
234.6996662952
 20
-19.1396670485
 10
233.3539075441
 20
-19.7019103043
 10
232.0219841545
 20
-20.1618250704
 10
230.7088506862
 20
-20.5177024814
 10
229.4193915636
 20
-20.7682178889
 10
228.1584046128
 20
-20.9124373245
 10
226.9305806463
 20
-20.9498277635
 10
225.7404866704
 20
-20.8802470477
 10
224.5925500796
 20
-20.7039560511
 10
223.4910421938
 20
-20.421608412
 10
222.4400591597
 20
-20.0342569955
 10
221.4435114146
 20
-19.5433417248
 10
220.5051065642
 20
-18.9506888191
 10
219.6283348942
 20
-18.2585024275
 10
218.8164588343
 20
-17.4693570228
 10
218.0724984694
 20
-16.5861905567
 10
217.3992196866
 20
-15.612287728
 10
216.7991302234
 20
-14.5512700961
 10
216.2744599113
 20
-13.4070854333
 10
215.8271606764
 20
-12.1839909939
 10
215.4588986363
 20
-10.886535643
 10
215.1710409293
 20
-9.5195473077
 10
214.964659666
 20
-8.0881101631
 10
214.8405240262
 20
-6.5975489475
 10
214.7990936741
 20
-5.053409665
  0
LWPOLYLINE
  5
E3
330
1F
100
AcDbEntity
  8
0
  6
Continuous
 62
     7
370
    25
100
AcDbPolyline
 90
       94
 70
   128
 43
0.0
 10
218.9003139407
 20
-2.6858256006
 10
218.9417719516
 20
-1.2451936655
 10
219.0659589579
 20
0.2367325772
 10
219.2723086111
 20
1.7531918102
 10
219.5598778756
 20
3.2972634343
 10
219.9273549306
 20
4.8619026444
 10
220.3730644391
 20
6.439971893
 10
220.8949714984
 20
8.024269027
 10
221.4906934945
 20
9.6075645492
 10
222.1575159069
 20
11.1826373588
 10
222.8923923088
 20
12.742297565
 10
223.6919720257
 20
14.2794305913
 10
224.552606721
 20
15.7870215099
 10
225.4703688353
 20
17.2581930631
 10
226.4410700256
 20
18.6862322773
 10
227.460282897
 20
20.0646227812
 10
228.5233554911
 20
21.3870759833
 10
229.6254389449
 20
22.6475561644
 10
230.7615026367
 20
23.8403135563
 10
231.9263648091
 20
24.9599065827
 10
233.1147093615
 20
26.0012252417
 10
234.3211144971
 20
26.9595182896
 10
235.5400757716
 20
27.8304141517
 10
236.766031118
 20
28.6099384103
 10
237.9933869416
 20
29.2945349529
 10
239.2165430623
 20
29.8810803709
 10
240.4299185622
 20
30.3668973606
 10
241.6279769755
 20
30.7497692643
 10
242.805251724
 20
31.027948671
 10
243.9563717189
 20
31.2001691536
 10
245.0760837506
 20
31.2656414643
 10
246.1592794893
 20
31.2240691216
 10
247.2010165585
 20
31.0756408038
 10
248.1965422425
 20
30.8210333887
 10
249.1413125841
 20
30.4614108109
 10
250.0310180682
 20
29.9984099908
 10
250.8615994264
 20
29.4341484381
 10
251.6292660764
 20
28.7711961126
 10
252.3305145616
 20
28.0125799852
 10
252.9621483068
 20
27.1617627435
 10
253.52128157
 20
26.2226237795
 10
254.005365784
 20
25.1994500617
 10
254.4121908735
 20
24.0969091383
 10
254.7399010599
 20
22.920032406
 10
254.9870014473
 20
21.6741896336
 10
255.1523646074
 20
20.3650650068
 10
255.2352345312
 20
18.9986312719
 10
255.2352345312
 20
17.58112388
 10
255.1523646074
 20
16.1190105677
 10
254.9870014473
 20
14.6189617001
 10
254.7399010599
 20
13.0878228932
 10
254.4121908735
 20
11.5325800334
 10
254.005365784
 20
9.9603288598
 10
253.52128157
 20
8.3782434052
 10
252.9621483068
 20
6.7935429166
 10
252.3305145616
 20
5.2134568757
 10
251.6292660764
 20
3.6451964811
 10
250.8615994264
 20
2.0959151075
 10
250.0310180682
 20
0.5726847309
 10
249.1413125841
 20
-0.9175481759
 10
248.1965422425
 20
-2.3679793717
 10
247.2010165585
 20
-3.7719962756
 10
246.1592794893
 20
-5.1231886119
 10
245.0760837506
 20
-6.4153921341
 10
243.9563717189
 20
-7.6427118174
 10
242.805251724
 20
-8.7995461911
 10
241.6279769755
 20
-9.8806192766
 10
240.4299185622
 20
-10.8809961735
 10
239.2165430623
 20
-11.7961127164
 10
237.9933869416
 20
-12.6217932952
 10
236.766031118
 20
-13.3542716232
 10
235.5400757716
 20
-13.9902052787
 10
234.3211144971
 20
-14.5266921472
 10
233.1147093615
 20
-14.9612848204
 10
231.9263648091
 20
-15.2919995772
 10
230.7615026367
 20
-15.5173277876
 10
229.6254389449
 20
-15.6362416145
 10
228.5233554911
 20
-15.6481999045
 10
227.460282897
 20
-15.5531441937
 10
226.4410700256
 20
-15.3515118231
 10
225.4703688353
 20
-15.0442203473
 10
224.552606721
 20
-14.6326743766
 10
223.6919720257
 20
-14.1187511264
 10
222.8923923088
 20
-13.5047931909
 10
222.1575159069
 20
-12.7936032182
 10
221.4906934945
 20
-11.9884271783
 10
220.8949714984
 20
-11.0929376324
 10
220.3730644391
 20
-10.1112215628
 10
219.9273549306
 20
-9.0477575589
 10
219.5598778756
 20
-7.9073983256
 10
219.2723086111
 20
-6.695347107
 10
219.0659589579
 20
-5.4171341124
 10
218.9417719516
 20
-4.078591135
 10
218.9003139407
 20
-2.6858256006
  0
LINE
  5
E4
330
1F
100
AcDbEntity
  8
0
  6
Continuous
 62
     7
370
    25
100
AcDbLine
 10
265.5946098425
 20
-45.0320881099
 30
0.0
 11
265.5457998407
 21
-45.0040855677
 31
0.0
  0
LINE
  5
E5
330
1F
100
AcDbEntity
  8
0
  6
Continuous
 62
     7
370
    25
100
AcDbLine
 10
272.7959566978
 20
-46.6310877428
 30
0.0
 11
272.6158941657
 21
-46.6398971595
 31
0.0
  0
LWPOLYLINE
  5
E6
330
1F
100
AcDbEntity
  8
0
  6
Continuous
 62
     7
370
    25
100
AcDbPolyline
 90
       34
 70
   128
 43
0.0
 10
344.4387186933
 20
-39.7425505354
 10
344.8051894924
 20
-39.9805132287
 10
345.3399941459
 20
-40.4407282519
 10
345.80803424
 20
-40.9954998104
 10
346.2049396735
 20
-41.6396487419
 10
346.5270041579
 20
-42.367160958
 10
346.7712207789
 20
-43.1712441024
 10
346.9353103139
 20
-44.0443897208
 10
347.0177396714
 20
-44.9784463153
 10
347.0177396714
 20
-45.964692445
 10
346.9353103139
 20
-46.99391995
 10
346.7712207789
 20
-48.056519313
 10
346.5270041579
 20
-49.1425689661
 10
346.2049396735
 20
-50.2419289209
 10
345.80803424
 20
-51.3443351116
 10
345.3399941459
 20
-52.4394942604
 10
344.8051894924
 20
-53.5171815932
 10
344.2086133641
 20
-54.5673343731
 10
343.5558357303
 20
-55.5801477143
 10
342.8529517499
 20
-56.5461660228
 10
342.1065234895
 20
-57.4563691133
 10
341.323520655
 20
-58.3022588967
 10
340.5112539135
 20
-59.0759366556
 10
339.677306899
 20
-59.7701810806
 10
338.8294660359
 20
-60.3785077937
 10
337.9756474409
 20
-60.895238163
 10
337.1238230421
 20
-61.3155472768
 10
336.281945917
 20
-61.6355108472
 10
335.4578765762
 20
-61.8521416818
 10
334.6593093715
 20
-61.9634177187
 10
333.8936996852
 20
-61.9682982036
 10
333.1681963473
 20
-61.8667391301
 10
332.4895728172
 20
-61.6596888607
 10
331.9397349097
 20
-61.3937722166
  0
LWPOLYLINE
  5
E7
330
1F
100
AcDbEntity
  8
0
  6
Continuous
 62
     1
370
    25
100
AcDbPolyline
 90
       54
 70
   128
 43
0.0
 10
297.0432408193
 20
9.5569926731
 10
297.4006605827
 20
9.3410751275
 10
298.3086709699
 20
8.6983569575
 10
299.1533873274
 20
7.9573457724
 10
299.9316683978
 20
7.1208015866
 10
300.6406165853
 20
6.191834205
 10
301.2775977119
 20
5.1739009389
 10
301.8402397003
 20
4.0707868347
 10
302.326449696
 20
2.8865963071
 10
302.7344206529
 20
1.6257348871
 10
303.0626326502
 20
0.2928928723
 10
303.3098673807
 20
-1.1069706446
 10
303.4752028819
 20
-2.5686496382
 10
303.5580240734
 20
-4.0867062183
 10
303.5580240734
 20
-5.6554923982
 10
303.4752028819
 20
-7.2691722905
 10
303.3098673807
 20
-8.9217435906
 10
303.0626326502
 20
-10.6070582513
 10
302.7344206529
 20
-12.3188457722
 10
302.326449696
 20
-14.0507404328
 10
301.8402397003
 20
-15.7962970724
 10
301.2775977119
 20
-17.5490237889
 10
300.6406165853
 20
-19.3023998095
 10
299.9316683978
 20
-21.0499013455
 10
299.1533873274
 20
-22.7850297282
 10
298.3086709699
 20
-24.5013296601
 10
297.4006605827
 20
-26.192414308
 10
296.4327331819
 20
-27.8519949608
 10
295.4084923232
 20
-29.4738969979
 10
294.3317457109
 20
-31.0520865036
 10
293.2064999297
 20
-32.5806946012
 10
292.0369406886
 20
-34.0540319
 10
290.8274189911
 20
-35.4666177722
 10
289.5824346719
 20
-36.813198982
 10
288.3066179573
 20
-38.0887664146
 10
287.0047162948
 20
-39.2885733259
 10
285.6815726206
 20
-40.4081570136
 10
284.3421085672
 20
-41.4433515535
 10
282.9913071761
 20
-42.3903069043
 10
281.6341935948
 20
-43.2455030934
 10
280.2758165135
 20
-44.0057533282
 10
278.9212289854
 20
-44.6682317988
 10
277.5754702343
 20
-45.2304750546
 10
276.2435468448
 20
-45.6903898207
 10
274.9304133764
 20
-46.0462672317
 10
273.6409542538
 20
-46.2967826392
 10
272.379967303
 20
-46.4410020748
 10
271.1521433366
 20
-46.4783925138
 10
269.9620493606
 20
-46.408811798
 10
268.8141127699
 20
-46.2325208014
 10
267.712604884
 20
-45.9501731623
 10
266.66162185
 20
-45.5628217458
 10
265.6650741049
 20
-45.0719064751
 10
265.5946098425
 20
-45.0320881099
  0
LWPOLYLINE
  5
E8
330
1F
100
AcDbEntity
  8
0
  6
Continuous
 62
     1
370
    25
100
AcDbPolyline
 90
       42
 70
   128
 43
0.0
 10
301.9880816253
 20
4.2665578222
 10
302.32785503
 20
3.5734507077
 10
302.810947476
 20
2.3968552155
 10
303.216301377
 20
1.144080043
 10
303.5424086661
 20
-0.1802141715
 10
303.7880576213
 20
-1.5711002752
 10
303.9523315488
 20
-3.0234057035
 10
304.0346232706
 20
-4.5317254097
 10
304.0346232706
 20
-6.0904503803
 10
303.9523315488
 20
-7.6937820859
 10
303.7880576213
 20
-9.3357541539
 10
303.5424086661
 20
-11.0102605043
 10
303.216301377
 20
-12.7110701804
 10
302.810947476
 20
-14.4318570051
 10
302.32785503
 20
-16.166219163
 10
301.7688218655
 20
-17.9077042952
 10
301.135926349
 20
-19.6498357344
 10
300.4315234357
 20
-21.3861307552
 10
299.6582341326
 20
-23.1101309924
 10
298.8189349623
 20
-24.8154222113
 10
297.9167474256
 20
-26.4956624443
 10
296.9550287825
 20
-28.1446002411
 10
295.9373562467
 20
-29.7561005227
 10
294.8675151321
 20
-31.3241681547
 10
293.7494869987
 20
-32.842971521
 10
292.587427921
 20
-34.3068596315
 10
291.3856638778
 20
-35.7103875977
 10
290.1486637522
 20
-37.0483322191
 10
288.8810294531
 20
-38.3157189795
 10
287.5874774764
 20
-39.5078311701
 10
286.2728191482
 20
-40.6202334622
 10
284.9419454786
 20
-41.648789777
 10
283.5998072406
 20
-42.5896732642
 10
282.2513973539
 20
-43.439381035
 10
280.9017319521
 20
-44.1947572588
 10
279.5558319432
 20
-44.8529870779
 10
278.218704241
 20
-45.4116256939
 10
276.895322503
 20
-45.8685912358
 10
275.5906108311
 20
-46.2221848164
 10
274.3094217104
 20
-46.4710941419
 10
273.0565216862
 20
-46.6143896134
 10
272.7959566978
 20
-46.6310877428
  0
LWPOLYLINE
  5
E9
330
1F
100
AcDbEntity
  8
0
  6
Continuous
 62
     1
370
    25
100
AcDbPolyline
 90
       28
 70
   128
 43
0.0
 10
317.0545513214
 20
-24.5986247658
 10
317.2429378561
 20
-24.9941424622
 10
317.5224932924
 20
-25.765486052
 10
317.7240039606
 20
-26.6083463251
 10
317.8456443752
 20
-27.5150909145
 10
317.8863141084
 20
-28.4775072879
 10
317.8456443752
 20
-29.4868799358
 10
317.7240039606
 20
-30.5340675584
 10
317.5224932924
 20
-31.6095870967
 10
317.2429378561
 20
-32.703698523
 10
316.8878697552
 20
-33.8064930535
 10
316.4605033454
 20
-34.9079842108
 10
315.9647108686
 20
-35.9981958455
 10
315.4049803055
 20
-37.0672556693
 10
314.7863824488
 20
-38.1054808038
 10
314.1145178904
 20
-39.1034707422
 10
313.3954719106
 20
-40.0521862428
 10
312.635756527
 20
-40.943036017
 10
311.8422508953
 20
-41.7679529594
 10
311.0221422058
 20
-42.5194647706
 10
310.1828567003
 20
-43.1907672403
 10
309.331995464
 20
-43.7757803255
 10
308.4772639616
 20
-44.2692063189
 10
307.6264027254
 20
-44.6665767066
 10
306.7871172198
 20
-44.9642926554
 10
305.9670085303
 20
-45.1596581823
 10
305.1735028987
 20
-45.2509033411
 10
305.1311117302
 20
-45.2528663007
  0
LWPOLYLINE
  5
EA
330
1F
100
AcDbEntity
  8
0
  6
Continuous
 62
     1
370
    25
100
AcDbPolyline
 90
       31
 70
   128
 43
0.0
 10
316.6989056769
 20
-23.9172582028
 10
317.1428193345
 20
-24.4474234811
 10
317.539724768
 20
-25.0915724126
 10
317.8617892524
 20
-25.8190846288
 10
318.1060058733
 20
-26.6231677731
 10
318.2700954084
 20
-27.4963133916
 10
318.3525247659
 20
-28.4303699861
 10
318.3525247659
 20
-29.4166161158
 10
318.2700954084
 20
-30.4458436207
 10
318.1060058733
 20
-31.5084429837
 10
317.8617892524
 20
-32.5944926368
 10
317.539724768
 20
-33.6938525916
 10
317.1428193345
 20
-34.7962587824
 10
316.6747792403
 20
-35.8914179311
 10
316.1399745869
 20
-36.9691052639
 10
315.5433984585
 20
-38.0192580439
 10
314.8906208248
 20
-39.0320713851
 10
314.1877368444
 20
-39.9980896935
 10
313.441308584
 20
-40.908292784
 10
312.6583057494
 20
-41.7541825674
 10
311.846039008
 20
-42.5278603263
 10
311.0120919935
 20
-43.2221047514
 10
310.1642511304
 20
-43.8304314644
 10
309.3104325354
 20
-44.3471618338
 10
308.4586081366
 20
-44.7674709476
 10
307.6167310114
 20
-45.087434518
 10
306.7926616706
 20
-45.3040653525
 10
305.9940944659
 20
-45.4153413894
 10
305.2284847797
 20
-45.4202218743
 10
304.5029814417
 20
-45.3186628009
 10
304.3632112968
 20
-45.2856231627
  0
ENDSEC
  0
SECTION
  2
OBJECTS
  0
DICTIONARY
  5
C
330
0
100
AcDbDictionary
281
     1
  3
ACAD_GROUP
350
D
  3
ACAD_LAYOUT
350
1A
  3
ACAD_MLINESTYLE
350
17
  3
ACAD_PLOTSETTINGS
350
19
  3
ACAD_PLOTSTYLENAME
350
E
  3
ACAD_SCALELIST
350
47
  0
DICTIONARY
  5
D
102
{ACAD_REACTORS
330
C
102
}
330
C
100
AcDbDictionary
281
     1
  0
DICTIONARY
  5
1A
102
{ACAD_REACTORS
330
C
102
}
330
C
100
AcDbDictionary
281
     1
  3
Layout1
350
1E
  3
Layout2
350
26
  3
Model
350
22
  0
DICTIONARY
  5
17
102
{ACAD_REACTORS
330
C
102
}
330
C
100
AcDbDictionary
281
     1
  3
Standard
350
18
  0
DICTIONARY
  5
19
102
{ACAD_REACTORS
330
C
102
}
330
C
100
AcDbDictionary
281
     1
  0
ACDBDICTIONARYWDFLT
  5
E
102
{ACAD_REACTORS
330
C
102
}
330
C
100
AcDbDictionary
281
     1
  3
Normal
350
F
100
AcDbDictionaryWithDefault
340
F
  0
DICTIONARY
  5
47
102
{ACAD_REACTORS
330
C
102
}
330
C
100
AcDbDictionary
281
     1
  3
A0
350
48
  3
A1
350
49
  3
A2
350
4A
  3
A3
350
4B
  3
A4
350
4C
  3
A5
350
4D
  3
A6
350
4E
  3
A7
350
4F
  3
A8
350
50
  3
A9
350
51
  3
B0
350
52
  3
B1
350
53
  3
B2
350
54
  3
B3
350
55
  3
B4
350
56
  3
B5
350
57
  3
B6
350
58
  3
B7
350
59
  3
B8
350
5A
  3
B9
350
5B
  3
C0
350
5C
  3
C1
350
5D
  3
C2
350
5E
  3
C3
350
5F
  3
C4
350
60
  3
C5
350
61
  3
C6
350
62
  3
C7
350
63
  3
C8
350
64
  3
C9
350
65
  3
D0
350
66
  3
D1
350
67
  3
D2
350
68
  0
LAYOUT
  5
1E
102
{ACAD_REACTORS
330
1A
102
}
330
1A
100
AcDbPlotSettings
  1

  2
none_device
  4

  6

 40
0.0
 41
0.0
 42
0.0
 43
0.0
 44
0.0
 45
0.0
 46
0.0
 47
0.0
 48
0.0
 49
0.0
140
0.0
141
0.0
142
1.0
143
1.0
 70
   688
 72
     1
 73
     0
 74
     5
  7

 75
    16
147
1.0
148
0.0
149
0.0
100
AcDbLayout
  1
Layout1
 70
     1
 71
     1
 10
0.0
 20
0.0
 11
420.0
 21
297.0
 12
0.0
 22
0.0
 32
0.0
 14
1.0000000000E+20
 24
1.0000000000E+20
 34
1.0000000000E+20
 15
-1.0000000000E+20
 25
-1.0000000000E+20
 35
-1.0000000000E+20
146
0.0
 13
0.0
 23
0.0
 33
0.0
 16
1.0
 26
0.0
 36
0.0
 17
0.0
 27
1.0
 37
0.0
 76
     0
330
1B
  0
LAYOUT
  5
26
102
{ACAD_REACTORS
330
1A
102
}
330
1A
100
AcDbPlotSettings
  1

  2
none_device
  4

  6

 40
0.0
 41
0.0
 42
0.0
 43
0.0
 44
0.0
 45
0.0
 46
0.0
 47
0.0
 48
0.0
 49
0.0
140
0.0
141
0.0
142
1.0
143
1.0
 70
   688
 72
     1
 73
     0
 74
     5
  7

 75
    16
147
1.0
148
0.0
149
0.0
100
AcDbLayout
  1
Layout2
 70
     1
 71
     2
 10
0.0
 20
0.0
 11
0.0
 21
0.0
 12
0.0
 22
0.0
 32
0.0
 14
0.0
 24
0.0
 34
0.0
 15
0.0
 25
0.0
 35
0.0
146
0.0
 13
0.0
 23
0.0
 33
0.0
 16
1.0
 26
0.0
 36
0.0
 17
0.0
 27
1.0
 37
0.0
 76
     0
330
23
  0
LAYOUT
  5
22
102
{ACAD_REACTORS
330
1A
102
}
330
1A
100
AcDbPlotSettings
  1

  2
none_device
  4
Letter_(8.50_x_11.00_Inches)
  6

 40
6.35
 41
6.35
 42
6.35000508
 43
6.35000508
 44
215.9
 45
279.4
 46
0.0
 47
0.0
 48
0.0
 49
0.0
140
0.0
141
0.0
142
1.0
143
1.0
 70
  1712
 72
     1
 73
     0
 74
     0
  7

 75
     0
147
1.0
148
0.0
149
0.0
100
AcDbLayout
  1
Model
 70
     1
 71
     0
 10
0.0
 20
0.0
 11
279.4
 21
215.9
 12
0.0
 22
0.0
 32
0.0
 14
0.0
 24
0.0
 34
0.0
 15
279.4
 25
215.9
 35
0.0
146
0.0
 13
0.0
 23
0.0
 33
0.0
 16
1.0
 26
0.0
 36
0.0
 17
0.0
 27
1.0
 37
0.0
 76
     0
330
1F
331
29
  0
MLINESTYLE
  5
18
102
{ACAD_REACTORS
330
17
102
}
330
17
100
AcDbMlineStyle
  2
Standard
 70
     0
  3

 62
   256
 51
90.0
 52
90.0
 71
     2
 49
0.5
 62
   256
  6
BYLAYER
 49
-0.5
 62
   256
  6
BYLAYER
  0
ACDBPLACEHOLDER
  5
F
102
{ACAD_REACTORS
330
E
102
}
330
E
  0
SCALE
  5
48
102
{ACAD_REACTORS
330
47
102
}
330
47
100
AcDbScale
 70
     0
300
1:1
140
1.0
141
1.0
290
     1
  0
SCALE
  5
49
102
{ACAD_REACTORS
330
47
102
}
330
47
100
AcDbScale
 70
     0
300
1:2
140
1.0
141
2.0
290
     0
  0
SCALE
  5
4A
102
{ACAD_REACTORS
330
47
102
}
330
47
100
AcDbScale
 70
     0
300
1:4
140
1.0
141
4.0
290
     0
  0
SCALE
  5
4B
102
{ACAD_REACTORS
330
47
102
}
330
47
100
AcDbScale
 70
     0
300
1:5
140
1.0
141
5.0
290
     0
  0
SCALE
  5
4C
102
{ACAD_REACTORS
330
47
102
}
330
47
100
AcDbScale
 70
     0
300
1:8
140
1.0
141
8.0
290
     0
  0
SCALE
  5
4D
102
{ACAD_REACTORS
330
47
102
}
330
47
100
AcDbScale
 70
     0
300
1:10
140
1.0
141
10.0
290
     0
  0
SCALE
  5
4E
102
{ACAD_REACTORS
330
47
102
}
330
47
100
AcDbScale
 70
     0
300
1:16
140
1.0
141
16.0
290
     0
  0
SCALE
  5
4F
102
{ACAD_REACTORS
330
47
102
}
330
47
100
AcDbScale
 70
     0
300
1:20
140
1.0
141
20.0
290
     0
  0
SCALE
  5
50
102
{ACAD_REACTORS
330
47
102
}
330
47
100
AcDbScale
 70
     0
300
1:30
140
1.0
141
30.0
290
     0
  0
SCALE
  5
51
102
{ACAD_REACTORS
330
47
102
}
330
47
100
AcDbScale
 70
     0
300
1:40
140
1.0
141
40.0
290
     0
  0
SCALE
  5
52
102
{ACAD_REACTORS
330
47
102
}
330
47
100
AcDbScale
 70
     0
300
1:50
140
1.0
141
50.0
290
     0
  0
SCALE
  5
53
102
{ACAD_REACTORS
330
47
102
}
330
47
100
AcDbScale
 70
     0
300
1:100
140
1.0
141
100.0
290
     0
  0
SCALE
  5
54
102
{ACAD_REACTORS
330
47
102
}
330
47
100
AcDbScale
 70
     0
300
2:1
140
2.0
141
1.0
290
     0
  0
SCALE
  5
55
102
{ACAD_REACTORS
330
47
102
}
330
47
100
AcDbScale
 70
     0
300
4:1
140
4.0
141
1.0
290
     0
  0
SCALE
  5
56
102
{ACAD_REACTORS
330
47
102
}
330
47
100
AcDbScale
 70
     0
300
8:1
140
8.0
141
1.0
290
     0
  0
SCALE
  5
57
102
{ACAD_REACTORS
330
47
102
}
330
47
100
AcDbScale
 70
     0
300
10:1
140
10.0
141
1.0
290
     0
  0
SCALE
  5
58
102
{ACAD_REACTORS
330
47
102
}
330
47
100
AcDbScale
 70
     0
300
100:1
140
100.0
141
1.0
290
     0
  0
SCALE
  5
59
102
{ACAD_REACTORS
330
47
102
}
330
47
100
AcDbScale
 70
     0
300
1/128" = 1'-0"
140
0.0078125
141
12.0
290
     0
  0
SCALE
  5
5A
102
{ACAD_REACTORS
330
47
102
}
330
47
100
AcDbScale
 70
     0
300
1/64" = 1'-0"
140
0.015625
141
12.0
290
     0
  0
SCALE
  5
5B
102
{ACAD_REACTORS
330
47
102
}
330
47
100
AcDbScale
 70
     0
300
1/32" = 1'-0"
140
0.03125
141
12.0
290
     0
  0
SCALE
  5
5C
102
{ACAD_REACTORS
330
47
102
}
330
47
100
AcDbScale
 70
     0
300
1/16" = 1'-0"
140
0.0625
141
12.0
290
     0
  0
SCALE
  5
5D
102
{ACAD_REACTORS
330
47
102
}
330
47
100
AcDbScale
 70
     0
300
3/32" = 1'-0"
140
0.09375
141
12.0
290
     0
  0
SCALE
  5
5E
102
{ACAD_REACTORS
330
47
102
}
330
47
100
AcDbScale
 70
     0
300
1/8" = 1'-0"
140
0.125
141
12.0
290
     0
  0
SCALE
  5
5F
102
{ACAD_REACTORS
330
47
102
}
330
47
100
AcDbScale
 70
     0
300
3/16" = 1'-0"
140
0.1875
141
12.0
290
     0
  0
SCALE
  5
60
102
{ACAD_REACTORS
330
47
102
}
330
47
100
AcDbScale
 70
     0
300
1/4" = 1'-0"
140
0.25
141
12.0
290
     0
  0
SCALE
  5
61
102
{ACAD_REACTORS
330
47
102
}
330
47
100
AcDbScale
 70
     0
300
3/8" = 1'-0"
140
0.375
141
12.0
290
     0
  0
SCALE
  5
62
102
{ACAD_REACTORS
330
47
102
}
330
47
100
AcDbScale
 70
     0
300
1/2" = 1'-0"
140
0.5
141
12.0
290
     0
  0
SCALE
  5
63
102
{ACAD_REACTORS
330
47
102
}
330
47
100
AcDbScale
 70
     0
300
3/4" = 1'-0"
140
0.75
141
12.0
290
     0
  0
SCALE
  5
64
102
{ACAD_REACTORS
330
47
102
}
330
47
100
AcDbScale
 70
     0
300
1" = 1'-0"
140
1.0
141
12.0
290
     0
  0
SCALE
  5
65
102
{ACAD_REACTORS
330
47
102
}
330
47
100
AcDbScale
 70
     0
300
1-1/2" = 1'-0"
140
1.5
141
12.0
290
     0
  0
SCALE
  5
66
102
{ACAD_REACTORS
330
47
102
}
330
47
100
AcDbScale
 70
     0
300
3" = 1'-0"
140
3.0
141
12.0
290
     0
  0
SCALE
  5
67
102
{ACAD_REACTORS
330
47
102
}
330
47
100
AcDbScale
 70
     0
300
6" = 1'-0"
140
6.0
141
12.0
290
     0
  0
SCALE
  5
68
102
{ACAD_REACTORS
330
47
102
}
330
47
100
AcDbScale
 70
     0
300
1'-0" = 1'-0"
140
12.0
141
12.0
290
     0
  0
ENDSEC
  0
EOF
